Geyik Merkezi Geyik Merkezi Video Mail forum


SeNSiZLiK ÖLüMDeN BiLe ZoR - NaZo

--0-5-7-8-7-5---5---5-------------5-7-5------------------------5-7-8-7-5

------------------8---8-5-6---5-8-------8-----8-6-8-6-3-5-----5---------
------------------------------------------------------------------------
------------------------------------------------------------------------
------------------------------------------------------------------------
------------------------------------------------------------------------


-5---5------------------------------------------------------------------
---8---8-5-6------6-5-3-1-3-0-1-----------------------------------------
--------------------------------2---------------------------------------
------------------------------------------------------------------------
------------------------------------------------------------------------
------------------------------------------------------------------------


am bb
vur hadi bir hamle ile cek tetiği
bm }2
yok olan kalp ağrı duyarmı hiç kanarmı


dm
sensizlik ölümden bile zor
c
hergün hergün ölemek gibi
bb
acısı cok devası yok
c am
sensin devası ilac gibi



dm
gittiğinde kalbimide aldın
c
bak bende bir hiç bıraktın
bb
sen bensiz olursun
c
ben sensiz yarım kaldım


dm
sensizlik ölümden bile zor
c
hergün hergün ölemek gibi
bb
acısı cok devası yok
c am
sensin devası ilac gibi


dm
gittiğinde kalbimide aldın
c
bak bende bir hiç bıraktın
bb
sen bensiz olursun
c
ben sensiz yarım kaldım
akor6722
Yorum Ekle

(Lütfen Cevaplayın)
Yorumunuz:



Ekle : Ekle Face book Ekle Google Ekle Digg Ekle Reddit Ekle Furl Ekle Del.icio.us Ekle Jeqq Ekle Spurl

Forum Linki:
Html Linki:
Direkt Link:
Mause ile tıklayın ve Ctrl + C ile kopyalayın
Geyik Merkezi Geyik Forum Geyik uçan kuş Manken Resmi